Hattler (Kraan) - Bass Tab Theard

Seite 1 von 1
Verfasst am:

Hattler (Kraan) - Bass Tab Theard

Hallo,

leider findet sich im Internet zum Thema Basstabs von Kraan nicht wirklich viel, also eigentlich gar nichts
Ist vermutlich auch schwierig, einen kompletten Song
darzustellen, letztlich ist es aber auch nicht das Anliegen.

Daher starte ich einfach mal damit und bringe an dieser Stelle mal zwei Tabs inkl. Youtube Video rein:

Code:

Kraan
Holiday am Marterhorn

From the CD "Andy Nogger"


Main-Basspart

G|----------------------------------------------------------|
D|-----------------------------------------------7---7-7-7--|
A|----------------------------------------------------------|
E|--5--5---5--5---5--5---5--5---5--5---5--5---5-------------|

Holiday am Marterhorn - Video:



Code:

Kraan
Borgward

From the CD "Tournee"


Main-Basspart

G|------------------------------------------------------|
D|------------------------------------------------------|
A|------------2--------5--------7-----------------------|
E|--0---0--3-----5--7-----7--9-----0--------------------|

G|------------------------------------------------------|
D|------------------------------------------------------|
A|--------2--------5--x--x--5--7------------------------|
E|--0--3-----5--7-----------------0---------------------|

Borgward - Video:


Gruß


Zuletzt bearbeitet von jaco_bass am 25.10.2009, insgesamt 2-mal bearbeitet
Verfasst am:

RE: Hattler (Kraan) - Bass Tab Theard

Moin!

Wenn ich mich recht erinnere, gibt es doch sogar eine Basschule von Hattler nebst beiliegendem Monster-Plek.
Ich weiß allerdings nicht, ob da auch Kraan-Songs drin vorkamen...

Beste Grüße!
Jab
Verfasst am:

RE: Hattler (Kraan) - Bass Tab Theard

Gerade frisch rausgetappt, bei -60% Geschwindigkeit

Code:

Kraan
Sarah's Ritt durch den Schwarzwald

From the CD "Kraan"


Riff

G|-----------------------------|
D|-----------------------------|
A|-0-2-3--0-2-3--0-2-3--2-0-2--|
E|-----------------------------|

G|------------------------------------1---2------3------|
D|-------4--------3--------2--------1---2------3--------|
A|-0-2-3----0-2-3----0-2-3----0-2-3----------3------0---|
E|------------------------------------------------------|

Die beiden Zeilen natürlich in einem Stück durchgezogen gespielt...


Hier dazu das Video:
Alle Zeiten sind GMT + 1 Stunde
Du kannst keine Beiträge in dieses Forum schreiben.
Du kannst auf Beiträge in diesem Forum nicht antworten.
Du kannst deine Beiträge in diesem Forum nicht bearbeiten.
Du kannst deine Beiträge in diesem Forum nicht löschen.
Du kannst an Umfragen in diesem Forum nicht mitmachen.