Titel: Rockin On Heaven's Floor - Intro


A
Anonymous
Guest
Moin

Ich hab ne Frage zu Rockin On Heaven's Floor von Jeanette Biedermann ....

Vom Intro hab ich mir die Töne rausgehört ...

Code:
---------------------------------------------
---------------------------------------------
---------------------------------------------
---7---5---9--12-11-7--5-6-7---12-11--12-11--
-0--0---0------------------------------------
---------------------------------------------

Jetzt zu meinem Problem:
Wie kann das so fett klingen? Ist das nur durch das Studio so, spiel ich das falsch, oder kann ich einfach nur nicht richtig hören?

Danke ....

Beste Grüße: egg
 
A
Anonymous
Guest
egg-91":10f5c76l schrieb:
Moin

Ich hab ne Frage zu Rockin On Heaven's Floor von Jeanette Biedermann ....

Vom Intro hab ich mir die Töne rausgehört ...

Code:
---------------------------------------------
---------------------------------------------
---------------------------------------------
---7---5---9--12-11-7--5-6-7---12-11--12-11--
-0--0---0------------------------------------
---------------------------------------------

Jetzt zu meinem Problem:
Wie kann das so fett klingen? Ist das nur durch das Studio so, spiel ich das falsch, oder kann ich einfach nur nicht richtig hören?

Danke ....

Beste Grüße: egg

Du sagst es ja schon, du hast dir die TÖNE rausgehört!
Was der Gitarrist dann da spielt sind aber meistens Powerchords oder Akkorde davon. Musst halt die jeweiligen bilden.

Bin da leider aber nicht so bewandert, also alle Angaben ohne Gewähr :oops: ;-)
 

Ähnliche Themen

 

Oben Unten