Legende

A
Anonymous
Guest
Hi, habe eine Frage zur Legende in Tabs:

quote:
x left hand mute.
slide.
fb full bend.
^^r hold down then release bend.


Was bedeutet z.B. "left hand mute". Ok, ich vermute irgendwas mit der Greifhand, aber was?!

http://sonic-23.de
 
A
Anonymous
Guest
Hallo!
Also left hand mute würde ich sagen ist wenn man die Saiten nicht ganz auf das Griffbrett drückt und dann anschlägt.

full bend down ist halt ein Bend den du soweit runterziehst bzw. hochdrückst, dass die Endnote eine ganze Note höher klingt als die Ausgangsnote.

tschööö Floyd
 
A
Anonymous
Guest
...wenn ich deine threats und kommentare richtig deute, müsste das bei dir eher "Righthand-mut" heißen
Tssstsss immer diese Diskriminierung der Linkshänder *kopfschüttel*
Ciao Frederic
 
A
Anonymous
Guest
quote:
...wenn ich deine threats und kommentare richtig deute, müsste das bei dir eher "Righthand-mut" heißen
Tssstsss immer diese Diskriminierung der Linkshänder *kopfschüttel*
Ciao Frederic




Das stimmt, deshalb wusste ich am Anfang überhaupt rein gar nicht, was damit gemeint war... mittlerweile hab ichs dann geschnallt, dass damit die Greifhand gemeint war... es ist schlimm ;-)

http://sonic-23.de
 
A
Anonymous
Guest
E|---------------------------------------------------|
b|---------------------------------------------------|
g|---------x-x-x-x-3--3-----------x-x-x-x--6--6-6----|
d|-3--3-3--x-x-x-x-3--3-0--6--6-6-x-x-x-x--6--6-6-0--|
a|-3--3-3--x-x-x-x-1--1-0--6--6-6-x-x-x-x--4--4-4-0--|
e|-1--1-1--x-x-x-x------0--4--4-4-x-x-x-x---------0--|


Schaut euch mal kurz diese Tabulatur an, da wo jetzt die X stehen, welchen Bund sollte ich da jetzt "gemutet" greifen?

Ich kapier nicht ganz, wie ich das anstellen soll...


Nils

http://sonic-23.de
 
A
Anonymous
Guest
Ich hab auch Probleme mit so komischen Abkürzungen in der Tabulatur von Nothing Else Matters...
7p0
7h8/5
12^

????

Guten Tag sagt der Bauer, wenn er in die Stube kommt.
Und Leichen auszugraben, gehört nicht unbedingt zum guten Ton.

Aber trotzdem herzlich Willkommen und viel Spaß!

MC
 
A
Anonymous
Guest
sonic-23":3lsp6dx4 schrieb:
E|---------------------------------------------------|
b|---------------------------------------------------|
g|---------x-x-x-x-3--3-----------x-x-x-x--6--6-6----|
d|-3--3-3--x-x-x-x-3--3-0--6--6-6-x-x-x-x--6--6-6-0--|
a|-3--3-3--x-x-x-x-1--1-0--6--6-6-x-x-x-x--4--4-4-0--|
e|-1--1-1--x-x-x-x------0--4--4-4-x-x-x-x---------0--|


Schaut euch mal kurz diese Tabulatur an, da wo jetzt die X stehen, welchen Bund sollte ich da jetzt "gemutet" greifen?

Ich kapier nicht ganz, wie ich das anstellen soll...


Nils

http://sonic-23.de

Hallo Sonic! Das ist doch ein Tab von "Smells like teen spirit", oder?

Also ich machs immer so, dass ich halt den ersten Akkord anschlage und dann einfach den Griff der Finger in dem Bund, in dem ich den Akkord gegriffen hab, lockere, sodass sie nur noch auf den Seiten liegen und diese nicht runterdrücken. Dadurch hast du halt einen recht perkussiven Klang.
Erst dann greif ich bei dem Stück um und mache das ganze nochmal.

Hoffe mal, ich hab's verständlich genug erklärt. ;-)
 
A
Anonymous
Guest
KrisRoe":1uunczbb schrieb:
sonic-23":1uunczbb schrieb:
E|---------------------------------------------------|
b|---------------------------------------------------|
g|---------x-x-x-x-3--3-----------x-x-x-x--6--6-6----|
d|-3--3-3--x-x-x-x-3--3-0--6--6-6-x-x-x-x--6--6-6-0--|
a|-3--3-3--x-x-x-x-1--1-0--6--6-6-x-x-x-x--4--4-4-0--|
e|-1--1-1--x-x-x-x------0--4--4-4-x-x-x-x---------0--|


Schaut euch mal kurz diese Tabulatur an, da wo jetzt die X stehen, welchen Bund sollte ich da jetzt "gemutet" greifen?

Ich kapier nicht ganz, wie ich das anstellen soll...


Nils

http://sonic-23.de

Hallo Sonic! Das ist doch ein Tab von "Smells like teen spirit", oder?

Also ich machs immer so, dass ich halt den ersten Akkord anschlage und dann einfach den Griff der Finger in dem Bund, in dem ich den Akkord gegriffen hab, lockere, sodass sie nur noch auf den Seiten liegen und diese nicht runterdrücken. Dadurch hast du halt einen recht perkussiven Klang.
Erst dann greif ich bei dem Stück um und mache das ganze nochmal.

Hoffe mal, ich hab's verständlich genug erklärt. ;-)

Ich bin mir nicht sicher, ob der Nils nach vier Jahren noch auf eine Antwort wartet bzw. sie nicht schon gefunden hat... ;-) ;-)
 
A
Anonymous
Guest
ich hab schon nen schock bekommen, dass der gute heut immernoch kein smells like teen spirit gebacken bekommt....
 
A
Anonymous
Guest
A
Anonymous
Guest
7-ender":3uapykgx schrieb:
Ich bin mir nicht sicher, ob der Nils nach vier Jahren noch auf eine Antwort wartet bzw. sie nicht schon gefunden hat... ;-) ;-)

Uuuups. Da steht der Thread da und ich guck nich auf's Datum. :oops:

Hab mich auch schon gewundert, weil der Sonic ja länger im Forum rumgeistert. :lol:
 
 

Oben Unten